Home | Müzik | Kargo / Yıldızların Altında Gitar Tabları

Kargo / Yıldızların Altında Gitar Tabları

By
Font size: Decrease font Enlarge font
Giris

Benim gönlüm sarhoştur yıldızların altında

E----------------------------------------------------------
B----------------------------------------------------------
G----------------------------------------------------------
D--------------------------8-7----7---------------12-10----
A----5------5--------------6-5----5---------------10-8-----
E----3------3----------------------------------------------

Sevişmek ah ne hoştur yıldızların altında

E-----------------------------------------------
B-----------------------------------------------
G-----------------------------------------------
D-------8------------3-------7------------------
A-------6------------1-------5----------5-------
E---------------------------------------3-------

Ara solo

E----------------------------------------------------------
B----------------------------------------------------------
G----------------------------------------------------------
D---------------------10-10-13-13-13-12-13-12--------------
A---10-10-12-12-13-13--------------------------------------
E----------------------------------------------------------


Ara ritim

E----------------------------------------------------------
B----------------------------------------------------------
G----------------------------------------------------------
D-----------------8-8-8-7-7-7-7----------------------------
A--5-5-5-5-5-5----6-6-6-5-5-5-5----------------------------
E--3-3-3-3-3-3---------------------------------------------

Nakarat

Yanmam gönül yansa da ecel beni alsa da gözlerim kapansa
Da yıldızların altında

E----------------------------------------------------------
B----------------------------------------------------------
G----------------------------------------------------------
D----------------------5--------3----------8----------3----
A---5----------3-------3--------1----------6----------1----
E---3----------1-------------------------------------------

E----------------------------------------------------------
B----------------------------------------------------------
G----------------------------------------------------------
D-------7--------------------------------------------------
A-------5------5(3)----------------------------------------
E--------------3(1)----------------------------------------

G Eb-D D G-F
Benim gönlüm sarhoştur yıldızların altında
Eb Bb D G
Sevişmek ah ne hoştur yıldızların altında

G Eb-D D G-F
Mavi nurdan bir ırmak gölgede bir salıncak
Eb Bb D G
Bir de ikimiz kalsak yıldızların altında


G F C Bb
Yanmam gönlüm yansa da ecel beni alsa da
Eb Bb D G-(f)
Gözlerim kapansa da yıldızların altında

Ritimlerin sayısına ugrasacak zamanım olmadı orjinal
Tonlar bunlardır




Kargo / Yıldızların Altında Gitar Tabları youtube müzik dinle, youtube izle, şarkı dinle, indir, video izle

Subscribe to comments feed Comments (0 posted)

total: | displaying:

Post your comment

Please enter the code you see in the image:

Captcha
  • Email to a friend Email to a friend

Tagged as:

Şarkı Gitar Tabları

Rate this article

0