Home | Müzik | Ferhat Göçer / Cennet Gitar Tabları

Ferhat Göçer / Cennet Gitar Tabları

By
Font size: Decrease font Enlarge font

Cennet ferhat göçer

E|-------------------------------------------5-------------
--------------------|
B|-------7-8-5--------5---7-5-5---7s8-8---7-5--------5-7-8-
7-7----------|
G|--4-7--------7-5-7-----------------------------7-5-7-----
-----------------|

E|---------------------------------------------------------
---------------------|
B|-------7-8-5--------5---7-5-5-7s8-8--7-5-----------------
---------------|
G|--4-7--------7-5-7---------------------------7-5-4-4-5-4-
5-4------------|





Ferhat Göçer / Cennet Gitar Tabları youtube müzik dinle, youtube izle, şarkı dinle, indir, video izle

Subscribe to comments feed Comments (0 posted)

total: | displaying:

Post your comment

Please enter the code you see in the image:

Captcha
  • Email to a friend Email to a friend

Tagged as:

Şarkı Gitar Tabları

Rate this article

0