Home | Müzik | Duman / Aman Aman Gitar Tabları

Duman / Aman Aman Gitar Tabları

By
Font size: Decrease font Enlarge font
F*m E
E-------------------------- E------------------------
B------2--2-2-3-0---------- B------0-----------------
G-----2-------------------- G-----1----4-4-6-4-2-----
D----4--------------------- D----2-------------------
A---4---------------------- A---2--------------------
E--2----------------------- E--0---------------------

F*m
E-------------------------- E------------------------
B------2--2-2-3-0---------- B------0-----------------
G-----2-------------------- G-----1----1-1-1-2-1-----
D----4--------------------- D----2--------------4----
A---4---------------------- A---2--------------------
E--2----------------------- E--0---------------------

F*m E
E-------------------------- E------------------------
B------2--2-2-3-0---------- B------0---5-5-7-5-2-----
G-----2-------------------- G-----1------------------
D----4--------------------- D----2-------------------
A---4---------------------- A---2--------------------
E--2----------------------- E--0---------------------

F*m E
E-------------------------- E------------------------
B------2--2-2-3-0---------- B------0-----------------
G-----2-------------------- G-----1---1-1-1-2-1------
D----4--------------------- D----2-------------4-----
A---4---------------------- A---2--------------------
E--2----------------------- E--0---------------------

Ara solo

F*m E
E--0---------------------- E--------------------2--
2-
B--0---------------------- B--------------2--2--2--
2-
G--1---1-1-1-2------------ G--------2--2--2--2--2--
2-
D--2----------4----------- D--4--4--4--4--4--4--4--
4-
A--2---------------------- A--4--4--4--4--4--4--4--
4-
E--0---------------------- E--2--2--2--2--2--2--2--
2-

Burada ki vuruş
Sayısından emin değilim
E
E--0----------------------
B--0----------------------
G--1---------1-2----------
D--2--2-2-2-4---4---------
A--2----------------------
E--0----------------------




Duman / Aman Aman Gitar Tabları youtube müzik dinle, youtube izle, şarkı dinle, indir, video izle

Subscribe to comments feed Comments (0 posted)

total: | displaying:

Post your comment

Please enter the code you see in the image:

Captcha
  • Email to a friend Email to a friend

Tagged as:

Şarkı Gitar Tabları

Rate this article

0