Home | Müzik | Badem / Sen Ağlama Gitar Tabları

Badem / Sen Ağlama Gitar Tabları

By
Font size: Decrease font Enlarge font
01:56

E||--------------------------------------------------------
------------------------|
B||--------------------------------------------------------
------------------------|
G||--------------------------------------------------------
------------------------|
D||--------4-6-7-6-4---------------------------------------
------------------------|
A||--4-6-7-----------7s9v------7-6-7s9v---7-6-6h7v-7-6h7p6-
------------------------|
E||--------------------------------------------------------
9-7-7S9v----------------|

02:04
V sweeeep v
------------------------------------------4---------7-5-
4H5p4----------------------
---------------5-7-7B(9)-(9)r7-5-7b .---5-----------------
---7-5-4---4-5---4-5S7v-
-----------4-6--------------------------6------------------
---------6-----6--------
-------4-6-------------------------------------------------
------------------------
---4-7-----------------------------------------------------
------------------------
-7---------------------------------------------------------
------------------------

02:14

-----------------------------------------------------------
-5-4-5S7v-5-4h5p4------------------------------------------
-------------------6-4-6-4---------------------------------
----------------------------7-6-7-6-4----------------------
--------------------------------------7-6H7v---------------
-----------------------------------------------------------

02:19 V sweeeep v
---------------------------------------------7----------
4H5p4------------------
-----------------5-7-7B(9)-(9)r7-5-7b .----5--------------
----7-5-4-----------
------------4-6----------------------------6---------------
----------6-4-4S6v--
--------4-6------------------------------------------------
--------------------
---4-7-----------------------------------------------------
--------------------
-7---------------------------------------------------------
--------------------




Badem / Sen Ağlama Gitar Tabları youtube müzik dinle, youtube izle, şarkı dinle, indir, video izle

Subscribe to comments feed Comments (0 posted)

total: | displaying:

Post your comment

Please enter the code you see in the image:

Captcha
  • Email to a friend Email to a friend

Tagged as:

Şarkı Gitar Tabları

Rate this article

0